ISO-10303-21;
HEADER;
FILE_DESCRIPTION (( 'STEP AP203' ),
    '1' );
FILE_NAME ('Q-QZWP-R4-25.4-1064-M.STEP',
    '2020-12-23T01:26:57',
    ( '' ),
    ( '' ),
    'SwSTEP 2.0',
    'SolidWorks 2020',
    '' );
FILE_SCHEMA (( 'CONFIG_CONTROL_DESIGN' ));
ENDSEC;

DATA;
#1 = CARTESIAN_POINT ( 'NONE',  ( -3.000000000000000888, 12.69999999999999929, 0.000000000000000000 ) ) ;
#2 = ADVANCED_FACE ( 'NONE', ( #150 ), #135, .T. ) ;
#3 = DIRECTION ( 'NONE',  ( 0.000000000000000000, 0.000000000000000000, -1.000000000000000000 ) ) ;
#4 = CARTESIAN_POINT ( 'NONE',  ( -3.000000000000000000, 0.000000000000000000, 0.000000000000000000 ) ) ;
#5 = DIRECTION ( 'NONE',  ( -1.000000000000000000, -0.000000000000000000, -0.000000000000000000 ) ) ;
#6 = ADVANCED_FACE ( 'NONE', ( #149 ), #48, .F. ) ;
#7 = DIRECTION ( 'NONE',  ( 0.000000000000000000, 0.000000000000000000, 1.000000000000000000 ) ) ;
#8 = DATE_AND_TIME ( #9, #72 ) ;
#9 = CALENDAR_DATE ( 2020, 23, 12 ) ;
#10 = LOCAL_TIME ( 9, 26, 57.00000000000000000, #20 ) ;
#11 = APPROVAL_ROLE ( '' ) ;
#12 = AXIS2_PLACEMENT_3D ( 'NONE', #95, #152, #18 ) ;
#13 = PERSON_AND_ORGANIZATION_ROLE ( 'creator' ) ;
#14 = EDGE_LOOP ( 'NONE', ( #65, #68, #158, #67 ) ) ;
#15 = CARTESIAN_POINT ( 'NONE',  ( -1.614212418857619014, 0.000000000000000000, 0.000000000000000000 ) ) ;
#16 =( NAMED_UNIT ( * ) PLANE_ANGLE_UNIT ( ) SI_UNIT ( $, .RADIAN. ) );
#17 = CLOSED_SHELL ( 'NONE', ( #71, #6, #2, #79 ) ) ;
#18 = DIRECTION ( 'NONE',  ( 0.000000000000000000, 0.000000000000000000, 1.000000000000000000 ) ) ;
#19 = APPLICATION_PROTOCOL_DEFINITION ( 'international standard', 'config_control_design', 1994, #66 ) ;
#20 = COORDINATED_UNIVERSAL_TIME_OFFSET ( 8, 0, .AHEAD. ) ;
#21 = AXIS2_PLACEMENT_3D ( 'NONE', #4, #122, #151 ) ;
#22 = CC_DESIGN_PERSON_AND_ORGANIZATION_ASSIGNMENT ( #77, #155, ( #106 ) ) ;
#23 = CALENDAR_DATE ( 2020, 23, 12 ) ;
#24 = CIRCLE ( 'NONE', #120, 15.00000000000000000 ) ;
#25 = AXIS2_PLACEMENT_3D ( 'NONE', #127, #62, #131 ) ;
#26 = EDGE_LOOP ( 'NONE', ( #46, #47 ) ) ;
#27 = AXIS2_PLACEMENT_3D ( 'NONE', #1, #166, #3 ) ;
#28 = CARTESIAN_POINT ( 'NONE',  ( -1.614212418857619014, 0.000000000000000000, 15.00000000000000000 ) ) ;
#29 = EDGE_CURVE ( 'NONE', #96, #165, #54, .T. ) ;
#30 = CARTESIAN_POINT ( 'NONE',  ( 3.000000000000000000, 0.000000000000000000, 0.000000000000000000 ) ) ;
#31 = CC_DESIGN_PERSON_AND_ORGANIZATION_ASSIGNMENT ( #113, #60, ( #99 ) ) ;
#32 = CARTESIAN_POINT ( 'NONE',  ( 3.000000000000000000, 0.000000000000000000, 15.00000000000000000 ) ) ;
#33 = APPROVAL_ROLE ( '' ) ;
#34 = DATE_TIME_ROLE ( 'classification_date' ) ;
#35 = DATE_TIME_ROLE ( 'creation_date' ) ;
#36 = EDGE_CURVE ( 'NONE', #165, #132, #146, .T. ) ;
#37 = ORIENTED_EDGE ( 'NONE', *, *, #86, .F. ) ;
#38 = CC_DESIGN_PERSON_AND_ORGANIZATION_ASSIGNMENT ( #171, #45, ( #73 ) ) ;
#39 = CARTESIAN_POINT ( 'NONE',  ( 3.000000000000000888, 12.69999999999999929, 0.000000000000000000 ) ) ;
#40 = ORIENTED_EDGE ( 'NONE', *, *, #63, .T. ) ;
#41 = CARTESIAN_POINT ( 'NONE',  ( 3.000000000000000000, 1.836970198721029589E-15, -15.00000000000000000 ) ) ;
#42 = CIRCLE ( 'NONE', #117, 15.00000000000000000 ) ;
#43 = UNCERTAINTY_MEASURE_WITH_UNIT (LENGTH_MEASURE( 1.000000000000000082E-05 ), #81, 'distance_accuracy_value', 'NONE');
#44 = DATE_AND_TIME ( #114, #108 ) ;
#45 = PERSON_AND_ORGANIZATION_ROLE ( 'classification_officer' ) ;
#46 = ORIENTED_EDGE ( 'NONE', *, *, #36, .T. ) ;
#47 = ORIENTED_EDGE ( 'NONE', *, *, #119, .T. ) ;
#48 = PLANE ( 'NONE',  #94 ) ;
#49 = CC_DESIGN_APPROVAL ( #76, ( #106 ) ) ;
#50 = LINE ( 'NONE', #124, #153 ) ;
#51 =( NAMED_UNIT ( * ) SI_UNIT ( $, .STERADIAN. ) SOLID_ANGLE_UNIT ( ) );
#52 = CC_DESIGN_PERSON_AND_ORGANIZATION_ASSIGNMENT ( #74, #13, ( #99 ) ) ;
#53 = DIRECTION ( 'NONE',  ( 0.000000000000000000, 0.000000000000000000, 1.000000000000000000 ) ) ;
#54 = LINE ( 'NONE', #28, #134 ) ;
#55 = APPROVAL_STATUS ( 'not_yet_approved' ) ;
#56 = APPROVAL_DATE_TIME ( #8, #76 ) ;
#57 = PERSON_AND_ORGANIZATION ( #133, #148 ) ;
#58 = APPROVAL_PERSON_ORGANIZATION ( #129, #76, #11 ) ;
#59 = CC_DESIGN_APPROVAL ( #85, ( #73 ) ) ;
#60 = PERSON_AND_ORGANIZATION_ROLE ( 'design_supplier' ) ;
#61 = MANIFOLD_SOLID_BREP ( 'Ðý×', #17 ) ;
#62 = DIRECTION ( 'NONE',  ( 0.000000000000000000, 0.000000000000000000, 1.000000000000000000 ) ) ;
#63 = EDGE_CURVE ( 'NONE', #123, #96, #42, .T. ) ;
#64 = AXIS2_PLACEMENT_3D ( 'NONE', #15, #107, #53 ) ;
#65 = ORIENTED_EDGE ( 'NONE', *, *, #130, .T. ) ;
#66 = APPLICATION_CONTEXT ( 'configuration controlled 3d designs of mechanical parts and assemblies' ) ;
#67 = ORIENTED_EDGE ( 'NONE', *, *, #29, .F. ) ;
#68 = ORIENTED_EDGE ( 'NONE', *, *, #86, .T. ) ;
#69 = LOCAL_TIME ( 9, 26, 57.00000000000000000, #156 ) ;
#70 = CARTESIAN_POINT ( 'NONE',  ( -3.000000000000000000, 0.000000000000000000, 0.000000000000000000 ) ) ;
#71 = ADVANCED_FACE ( 'NONE', ( #111 ), #80, .T. ) ;
#72 = LOCAL_TIME ( 9, 26, 57.00000000000000000, #98 ) ;
#73 = SECURITY_CLASSIFICATION ( '', '', #169 ) ;
#74 = PERSON_AND_ORGANIZATION ( #133, #148 ) ;
#75 = PERSON_AND_ORGANIZATION ( #133, #148 ) ;
#76 = APPROVAL ( #55, 'UNSPECIFIED' ) ;
#77 = PERSON_AND_ORGANIZATION ( #133, #148 ) ;
#78 = ORIENTED_EDGE ( 'NONE', *, *, #63, .F. ) ;
#79 = ADVANCED_FACE ( 'NONE', ( #97 ), #136, .F. ) ;
#80 = CYLINDRICAL_SURFACE ( 'NONE', #12, 15.00000000000000000 ) ;
#81 =( LENGTH_UNIT ( ) NAMED_UNIT ( * ) SI_UNIT ( .MILLI., .METRE. ) );
#82 = DIRECTION ( 'NONE',  ( -0.000000000000000000, 0.000000000000000000, 1.000000000000000000 ) ) ;
#83 = DIRECTION ( 'NONE',  ( 0.000000000000000000, 0.000000000000000000, 1.000000000000000000 ) ) ;
#84 = MECHANICAL_CONTEXT ( 'NONE', #66, 'mechanical' ) ;
#85 = APPROVAL ( #144, 'UNSPECIFIED' ) ;
#86 = EDGE_CURVE ( 'NONE', #123, #132, #50, .T. ) ;
#87 = PERSON_AND_ORGANIZATION ( #133, #148 ) ;
#88 = APPROVAL_DATE_TIME ( #100, #142 ) ;
#89 = CIRCLE ( 'NONE', #174, 15.00000000000000000 ) ;
#90 = ORIENTED_EDGE ( 'NONE', *, *, #119, .F. ) ;
#91 = ORIENTED_EDGE ( 'NONE', *, *, #29, .T. ) ;
#92 = APPLICATION_CONTEXT ( 'configuration controlled 3d designs of mechanical parts and assemblies' ) ;
#93 = DIRECTION ( 'NONE',  ( -1.000000000000000000, -0.000000000000000000, -0.000000000000000000 ) ) ;
#94 = AXIS2_PLACEMENT_3D ( 'NONE', #39, #140, #82 ) ;
#95 = CARTESIAN_POINT ( 'NONE',  ( -1.614212418857619014, 0.000000000000000000, 0.000000000000000000 ) ) ;
#96 = VERTEX_POINT ( 'NONE', #32 ) ;
#97 = FACE_OUTER_BOUND ( 'NONE', #26, .T. ) ;
#98 = COORDINATED_UNIVERSAL_TIME_OFFSET ( 8, 0, .AHEAD. ) ;
#99 = PRODUCT_DEFINITION_FORMATION_WITH_SPECIFIED_SOURCE ( 'ANY', '', #162, .NOT_KNOWN. ) ;
#100 = DATE_AND_TIME ( #145, #10 ) ;
#101 = APPROVAL_PERSON_ORGANIZATION ( #87, #85, #118 ) ;
#102 = DATE_AND_TIME ( #23, #69 ) ;
#103 = APPROVAL_DATE_TIME ( #44, #85 ) ;
#104 = SHAPE_DEFINITION_REPRESENTATION ( #164, #115 ) ;
#105 =( GEOMETRIC_REPRESENTATION_CONTEXT ( 3 ) GLOBAL_UNCERTAINTY_ASSIGNED_CONTEXT ( ( #43 ) ) GLOBAL_UNIT_ASSIGNED_CONTEXT ( ( #81, #16, #51 ) ) REPRESENTATION_CONTEXT ( 'NONE', 'WORKASPACE' ) );
#106 = PRODUCT_DEFINITION ( 'UNKNOWN', '', #99, #139 ) ;
#107 = DIRECTION ( 'NONE',  ( -1.000000000000000000, -0.000000000000000000, -0.000000000000000000 ) ) ;
#108 = LOCAL_TIME ( 9, 26, 57.00000000000000000, #143 ) ;
#109 = PRODUCT_RELATED_PRODUCT_CATEGORY ( 'detail', '', ( #162 ) ) ;
#110 = DIRECTION ( 'NONE',  ( -1.000000000000000000, -0.000000000000000000, -0.000000000000000000 ) ) ;
#111 = FACE_OUTER_BOUND ( 'NONE', #14, .T. ) ;
#112 = ORIENTED_EDGE ( 'NONE', *, *, #130, .F. ) ;
#113 = PERSON_AND_ORGANIZATION ( #133, #148 ) ;
#114 = CALENDAR_DATE ( 2020, 23, 12 ) ;
#115 = ADVANCED_BREP_SHAPE_REPRESENTATION ( 'Q-QZWP-R4-25.4-1064-M', ( #61, #25 ), #105 ) ;
#116 = APPROVAL_STATUS ( 'not_yet_approved' ) ;
#117 = AXIS2_PLACEMENT_3D ( 'NONE', #30, #93, #121 ) ;
#118 = APPROVAL_ROLE ( '' ) ;
#119 = EDGE_CURVE ( 'NONE', #132, #165, #89, .T. ) ;
#120 = AXIS2_PLACEMENT_3D ( 'NONE', #125, #110, #7 ) ;
#121 = DIRECTION ( 'NONE',  ( 0.000000000000000000, 0.000000000000000000, 1.000000000000000000 ) ) ;
#122 = DIRECTION ( 'NONE',  ( -1.000000000000000000, -0.000000000000000000, -0.000000000000000000 ) ) ;
#123 = VERTEX_POINT ( 'NONE', #41 ) ;
#124 = CARTESIAN_POINT ( 'NONE',  ( -1.614212418857619014, 1.836970198721029589E-15, -15.00000000000000000 ) ) ;
#125 = CARTESIAN_POINT ( 'NONE',  ( 3.000000000000000000, 0.000000000000000000, 0.000000000000000000 ) ) ;
#126 = PERSON_AND_ORGANIZATION_ROLE ( 'design_owner' ) ;
#127 = CARTESIAN_POINT ( 'NONE',  ( 0.000000000000000000, 0.000000000000000000, 0.000000000000000000 ) ) ;
#128 = CC_DESIGN_DATE_AND_TIME_ASSIGNMENT ( #170, #34, ( #73 ) ) ;
#129 = PERSON_AND_ORGANIZATION ( #133, #148 ) ;
#130 = EDGE_CURVE ( 'NONE', #96, #123, #24, .T. ) ;
#131 = DIRECTION ( 'NONE',  ( 1.000000000000000000, 0.000000000000000000, 0.000000000000000000 ) ) ;
#132 = VERTEX_POINT ( 'NONE', #154 ) ;
#133 = PERSON ( 'UNSPECIFIED', 'UNSPECIFIED', 'UNSPECIFIED', ('UNSPECIFIED'), ('UNSPECIFIED'), ('UNSPECIFIED') ) ;
#134 = VECTOR ( 'NONE', #5, 1000.000000000000000 ) ;
#135 = CYLINDRICAL_SURFACE ( 'NONE', #64, 15.00000000000000000 ) ;
#136 = PLANE ( 'NONE',  #27 ) ;
#137 = CC_DESIGN_APPROVAL ( #142, ( #99 ) ) ;
#138 = DIRECTION ( 'NONE',  ( -1.000000000000000000, -0.000000000000000000, -0.000000000000000000 ) ) ;
#139 = DESIGN_CONTEXT ( 'detailed design', #92, 'design' ) ;
#140 = DIRECTION ( 'NONE',  ( -1.000000000000000000, 0.000000000000000000, -0.000000000000000000 ) ) ;
#141 = APPLICATION_PROTOCOL_DEFINITION ( 'international standard', 'config_control_design', 1994, #92 ) ;
#142 = APPROVAL ( #116, 'UNSPECIFIED' ) ;
#143 = COORDINATED_UNIVERSAL_TIME_OFFSET ( 8, 0, .AHEAD. ) ;
#144 = APPROVAL_STATUS ( 'not_yet_approved' ) ;
#145 = CALENDAR_DATE ( 2020, 23, 12 ) ;
#146 = CIRCLE ( 'NONE', #21, 15.00000000000000000 ) ;
#147 = EDGE_LOOP ( 'NONE', ( #112, #78 ) ) ;
#148 = ORGANIZATION ( 'UNSPECIFIED', 'UNSPECIFIED', '' ) ;
#149 = FACE_OUTER_BOUND ( 'NONE', #147, .T. ) ;
#150 = FACE_OUTER_BOUND ( 'NONE', #175, .T. ) ;
#151 = DIRECTION ( 'NONE',  ( 0.000000000000000000, 0.000000000000000000, 1.000000000000000000 ) ) ;
#152 = DIRECTION ( 'NONE',  ( -1.000000000000000000, -0.000000000000000000, -0.000000000000000000 ) ) ;
#153 = VECTOR ( 'NONE', #163, 1000.000000000000000 ) ;
#154 = CARTESIAN_POINT ( 'NONE',  ( -3.000000000000000000, 1.836970198721029589E-15, -15.00000000000000000 ) ) ;
#155 = PERSON_AND_ORGANIZATION_ROLE ( 'creator' ) ;
#156 = COORDINATED_UNIVERSAL_TIME_OFFSET ( 8, 0, .AHEAD. ) ;
#157 = CALENDAR_DATE ( 2020, 23, 12 ) ;
#158 = ORIENTED_EDGE ( 'NONE', *, *, #36, .F. ) ;
#159 = CC_DESIGN_PERSON_AND_ORGANIZATION_ASSIGNMENT ( #75, #126, ( #162 ) ) ;
#160 = APPROVAL_PERSON_ORGANIZATION ( #57, #142, #33 ) ;
#161 = CARTESIAN_POINT ( 'NONE',  ( -3.000000000000000000, 0.000000000000000000, 15.00000000000000000 ) ) ;
#162 = PRODUCT ( 'Q-QZWP-R4-25.4-1064-M', 'Q-QZWP-R4-25.4-1064-M', '', ( #84 ) ) ;
#163 = DIRECTION ( 'NONE',  ( -1.000000000000000000, -0.000000000000000000, -0.000000000000000000 ) ) ;
#164 = PRODUCT_DEFINITION_SHAPE ( 'NONE', 'NONE',  #106 ) ;
#165 = VERTEX_POINT ( 'NONE', #161 ) ;
#166 = DIRECTION ( 'NONE',  ( 1.000000000000000000, 0.000000000000000000, 0.000000000000000000 ) ) ;
#167 = COORDINATED_UNIVERSAL_TIME_OFFSET ( 8, 0, .AHEAD. ) ;
#168 = CC_DESIGN_SECURITY_CLASSIFICATION ( #73, ( #99 ) ) ;
#169 = SECURITY_CLASSIFICATION_LEVEL ( 'unclassified' ) ;
#170 = DATE_AND_TIME ( #157, #173 ) ;
#171 = PERSON_AND_ORGANIZATION ( #133, #148 ) ;
#172 = CC_DESIGN_DATE_AND_TIME_ASSIGNMENT ( #102, #35, ( #106 ) ) ;
#173 = LOCAL_TIME ( 9, 26, 57.00000000000000000, #167 ) ;
#174 = AXIS2_PLACEMENT_3D ( 'NONE', #70, #138, #83 ) ;
#175 = EDGE_LOOP ( 'NONE', ( #37, #40, #91, #90 ) ) ;
ENDSEC;
END-ISO-10303-21;
